0
SECTION
2
HEADER
9
$ANGDIR
70
0
9
$CHAMFERA
40
10
9
$CHAMFERB
40
10
9
$CLAYER
8
Layer_1
9
$EXTMAX
10
485
20
435
9
$EXTMIN
10
-85
20
-135
9
$LIMMAX
10
485
20
435
9
$LIMMIN
10
-85
20
-135
9
$LTSCALE
40
10
9
$PLINEGEN
70
0
9
$TEXTSIZE
40
20
9
$GRIDUNIT
10
10
20
10
9
$SNAPUNIT
10
1
20
1
0
ENDSEC
0
SECTION
2
TABLES
0
TABLE
2
STYLE
70
1
0
STYLE
2
STANDARD
70
0
40
0
41
1
50
0
71
0
42
0.20000000000000001
3
txt
4

0
ENDTAB
0
TABLE
2
LTYPE
70
14
0
LTYPE
2
CONTINUOUS
70
0
3
Solid line
72
65
73
0
40
0
0
LTYPE
2
DOT
70
0
3
............................................
72
65
73
2
40
0.25
49
0
49
-0.25
0
LTYPE
2
HIDDEN
70
0
3
_ _ _ _ _ _ _ _ _ _ _ _ _ _ _ _ _ _ _ _ _ _ 
72
65
73
2
40
0.375
49
0.25
49
-0.125
0
LTYPE
2
TSLONGDASH
70
0
3
__ __ __ __ __ __ __ __ __ __ __ __ __ __ _ 
72
65
73
2
40
1.28
49
1
49
-0.28000000000000003
0
LTYPE
2
TSDASHDOT
70
0
3
______ . ______ . ______ . ______ . ______ .
72
65
73
4
40
1.28
49
1
49
-0.14000000000000001
49
0
49
-0.14000000000000001
0
LTYPE
2
TSCENTER
70
0
3
______ _ ______ _ ______ _ ______ _ ______ _
72
65
73
4
40
2
49
1.5
49
-0.17999999999999999
49
0.14000000000000001
49
-0.17999999999999999
0
LTYPE
2
TSPHANTOM
70
0
3
_____ _ _ _____ _ _ _____ _ _ _____ _ _ ____
72
65
73
6
40
2.5
49
1.6299999999999999
49
-0.19
49
0.14999999999999999
49
-0.19
49
0.14999999999999999
49
-0.19
0
LTYPE
2
DASHED
70
0
3
__ __ __ __ __ __ __ __ __ __ __ __ __ __ __
72
65
73
2
40
0.75
49
0.5
49
-0.25
0
LTYPE
2
CENTER
70
0
3
____ _ ____ _ ____ _ ____ _ ____ _ ____ _ __
72
65
73
4
40
2
49
1.25
49
-0.25
49
0.25
49
-0.25
0
LTYPE
2
PHANTOM
70
0
3
_____ _ _ _____ _ _ _____ _ _ _____ _ _ ____
72
65
73
6
40
2.5
49
1.25
49
-0.25
49
0.25
49
-0.25
49
0.25
49
-0.25
0
LTYPE
2
DASHDOT
70
0
3
__ . __ . __ . __ . __ . __ . __ . __ . __ .
72
65
73
4
40
1
49
0.5
49
-0.25
49
0
49
-0.25
0
LTYPE
2
BORDER
70
0
3
__ __ . __ __ . __ __ . __ __ . __ __ . __ _
72
65
73
6
40
1.75
49
0.5
49
-0.25
49
0.5
49
-0.25
49
0
49
-0.25
0
LTYPE
2
DIVIDE
70
0
3
__ . . __ . . __ . . __ . . __ . . __ . . __
72
65
73
6
40
1.25
49
0.5
49
-0.25
49
0
49
-0.25
49
0
49
-0.25
0
ENDTAB
0
TABLE
2
LAYER
70
3
0
LAYER
2
Layer_1
70
0
62
7
6
CONTINUOUS
0
LAYER
2
Layer_2
70
0
62
7
6
CONTINUOUS
0
LAYER
2
Layer_3
70
0
62
7
6
CONTINUOUS
0
ENDTAB
0
ENDSEC
0
SECTION
2
ENTITIES
0
ARC
8
Layer_1
6
CONTINUOUS
62
1
10
200
20
150
40
249.99999999999997
50
272.29244277344901
51
357.70755722397854
0
ARC
8
Layer_1
6
CONTINUOUS
62
1
10
200
20
150
40
249.99999999999991
50
2.2924427760214106
51
87.707557226550975
0
ARC
8
Layer_1
6
CONTINUOUS
62
1
10
200
20
150
40
249.99999999999991
50
92.292442778593795
51
177.70755722912338
0
ARC
8
Layer_1
6
CONTINUOUS
62
1
10
200
20
150
40
249.99999999999991
50
182.29244277087665
51
267.7075572214062
0
ARC
8
Layer_1
6
CONTINUOUS
62
1
10
200
20
150
40
150.00000000000003
50
273.82255372681124
51
356.17744627061637
0
ARC
8
Layer_1
6
CONTINUOUS
62
1
10
200
20
150
40
150
50
3.8225537293836007
51
86.177446273188792
0
ARC
8
Layer_1
6
CONTINUOUS
62
1
10
200
20
150
40
150.00000000000006
50
93.822553731955963
51
176.17744627576116
0
ARC
8
Layer_1
6
CONTINUOUS
62
1
10
200
20
150
40
150
50
183.82255372423882
51
266.17744626804404
0
CIRCLE
8
Layer_1
6
CONTINUOUS
62
1
10
200
20
150
40
50
0
ARC
8
Layer_1
6
CONTINUOUS
62
1
10
200
20
150
40
100
50
275.7391704748585
51
354.26082952256917
0
ARC
8
Layer_1
6
CONTINUOUS
62
1
10
200
20
150
40
99.999999999999986
50
5.7391704774308083
51
84.260829525141588
0
ARC
8
Layer_1
6
CONTINUOUS
62
1
10
200
20
150
40
99.999999999999986
50
95.739170480003224
51
174.26082952771395
0
ARC
8
Layer_1
6
CONTINUOUS
62
1
10
200
20
150
40
99.999999999999986
50
185.73917047228608
51
264.26082951999678
0
ARC
8
Layer_1
6
CONTINUOUS
62
1
10
200
20
150
40
200
50
272.86598398010841
51
357.13401601731925
0
ARC
8
Layer_1
6
CONTINUOUS
62
1
10
200
20
150
40
200.00000000000003
50
2.8659839826807776
51
87.134016019891618
0
ARC
8
Layer_1
6
CONTINUOUS
62
1
10
200
20
150
40
200.00000000000003
50
92.865983985253152
51
177.13401602246398
0
ARC
8
Layer_1
6
CONTINUOUS
62
1
10
200
20
150
40
200
50
182.86598397753599
51
267.13401601474681
0
LINE
8
Layer_1
6
CONTINUOUS
62
1
10
190
20
-99.799919935935932
11
190
21
-49.749843554381819
0
LINE
8
Layer_1
6
CONTINUOUS
62
1
10
190
20
0.33370452904236009
11
190
21
50.501256289338023
0
LINE
8
Layer_1
6
CONTINUOUS
62
1
10
189.99999999999997
20
249.49874371066198
11
190.00000000000003
21
299.66629547095772
0
LINE
8
Layer_1
6
CONTINUOUS
62
1
10
190.00000000000003
20
349.74984355438181
11
190
21
399.79991993593586
0
LINE
8
Layer_1
6
CONTINUOUS
62
1
10
209.99999999999997
20
399.79991993593592
11
209.99999999999997
21
349.74984355438181
0
LINE
8
Layer_1
6
CONTINUOUS
62
1
10
209.99999999999997
20
299.66629547095766
11
209.99999999999997
21
249.49874371066204
0
LINE
8
Layer_1
6
CONTINUOUS
62
1
10
210.00000000000006
20
50.501256289338023
11
210.00000000000006
21
0.33370452904231274
0
LINE
8
Layer_1
6
CONTINUOUS
62
1
10
210.00000000000006
20
-49.749843554381783
11
210.00000000000003
21
-99.799919935935947
0
LINE
8
Layer_1
6
CONTINUOUS
62
1
10
449.79991993593586
20
160
11
399.74984355438181
21
160
0
LINE
8
Layer_1
6
CONTINUOUS
62
1
10
349.66629547095766
20
160
11
299.49874371066198
21
159.99999999999997
0
LINE
8
Layer_1
6
CONTINUOUS
62
1
10
100.50125628933802
20
160
11
50.333704529042329
21
160.00000000000003
0
LINE
8
Layer_1
6
CONTINUOUS
62
1
10
0.25015644561822215
20
160
11
-49.799919935935854
21
160.00000000000003
0
LINE
8
Layer_1
6
CONTINUOUS
62
1
10
449.79991993593586
20
139.99999999999997
11
399.74984355438181
21
139.99999999999997
0
LINE
8
Layer_1
6
CONTINUOUS
62
1
10
349.66629547095766
20
139.99999999999997
11
299.49874371066198
21
140
0
LINE
8
Layer_1
6
CONTINUOUS
62
1
10
100.50125628933802
20
140
11
50.333704529042329
21
140.00000000000003
0
LINE
8
Layer_1
6
CONTINUOUS
62
1
10
0.25015644561822215
20
140
11
-49.799919935935854
21
140
0
CIRCLE
8
Layer_1
6
CONTINUOUS
62
1
10
200
20
150
40
285
0
ENDSEC
0
EOF
